  0
SECTION
  2
HEADER
  9
$ACADVER
  1
AC1015
  9
$ACADMAINTVER
 70
     6
  9
$DWGCODEPAGE
  3
ANSI_1254
  9
$INSBASE
 10
0.0
 20
0.0
 30
0.0
  9
$EXTMIN
 10
0.0
 20
0.0
 30
0.0
  9
$EXTMAX
 10
279.4
 20
215.9
 30
0.0
  9
$LIMMIN
 10
0.0
 20
0.0
  9
$LIMMAX
 10
279.4
 20
215.9
  9
$ORTHOMODE
 70
     0
  9
$REGENMODE
 70
     1
  9
$FILLMODE
 70
     1
  9
$QTEXTMODE
 70
     0
  9
$MIRRTEXT
 70
     1
  9
$LTSCALE
 40
1.0
  9
$ATTMODE
 70
     1
  9
$TEXTSIZE
 40
3.5
  9
$TRACEWID
 40
1.0
  9
$TEXTSTYLE
  7
Standard
  9
$CLAYER
  8
0
  9
$CELTYPE
  6
ByLayer
  9
$CECOLOR
 62
   256
  9
$CELTSCALE
 40
1.0
  9
$DISPSILH
 70
     0
  9
$DIMSCALE
 40
1.0
  9
$DIMASZ
 40
3.5
  9
$DIMEXO
 40
1.0
  9
$DIMDLI
 40
3.75
  9
$DIMRND
 40
0.0
  9
$DIMDLE
 40
0.0
  9
$DIMEXE
 40
1.0
  9
$DIMTP
 40
0.0
  9
$DIMTM
 40
0.0
  9
$DIMTXT
 40
3.5
  9
$DIMCEN
 40
2.5
  9
$DIMTSZ
 40
0.0
  9
$DIMTOL
 70
     0
  9
$DIMLIM
 70
     0
  9
$DIMTIH
 70
     1
  9
$DIMTOH
 70
     1
  9
$DIMSE1
 70
     0
  9
$DIMSE2
 70
     0
  9
$DIMTAD
 70
     1
  9
$DIMZIN
 70
     0
  9
$DIMBLK
  1

  9
$DIMASO
 70
     1
  9
$DIMSHO
 70
     1
  9
$DIMPOST
  1

  9
$DIMAPOST
  1

  9
$DIMALT
 70
     0
  9
$DIMALTD
 70
     3
  9
$DIMALTF
 40
0.0393700787
  9
$DIMLFAC
 40
1.0
  9
$DIMTOFL
 70
     1
  9
$DIMTVP
 40
0.0
  9
$DIMTIX
 70
     0
  9
$DIMSOXD
 70
     0
  9
$DIMSAH
 70
     0
  9
$DIMBLK1
  1

  9
$DIMBLK2
  1

  9
$DIMSTYLE
  2
ISO-25
  9
$DIMCLRD
 70
     0
  9
$DIMCLRE
 70
     0
  9
$DIMCLRT
 70
     0
  9
$DIMTFAC
 40
1.0
  9
$DIMGAP
 40
1.524
  9
$DIMJUST
 70
     0
  9
$DIMSD1
 70
     0
  9
$DIMSD2
 70
     0
  9
$DIMTOLJ
 70
     0
  9
$DIMTZIN
 70
     0
  9
$DIMALTZ
 70
     0
  9
$DIMALTTZ
 70
     0
  9
$DIMUPT
 70
     0
  9
$DIMDEC
 70
     2
  9
$DIMTDEC
 70
     2
  9
$DIMALTU
 70
     2
  9
$DIMALTTD
 70
     3
  9
$DIMTXSTY
  7
Standard
  9
$DIMAUNIT
 70
     0
  9
$DIMADEC
 70
     2
  9
$DIMALTRND
 40
0.0
  9
$DIMAZIN
 70
     0
  9
$DIMDSEP
 70
    44
  9
$DIMATFIT
 70
     3
  9
$DIMFRAC
 70
     0
  9
$DIMLDRBLK
  1

  9
$DIMLUNIT
 70
     2
  9
$DIMLWD
 70
    -2
  9
$DIMLWE
 70
    -2
  9
$DIMTMOVE
 70
     0
  9
$LUNITS
 70
     2
  9
$LUPREC
 70
     2
  9
$SKETCHINC
 40
1.0
  9
$FILLETRAD
 40
10.0
  9
$AUNITS
 70
     0
  9
$AUPREC
 70
     2
  9
$MENU
  1
.
  9
$ELEVATION
 40
0.0
  9
$PELEVATION
 40
0.0
  9
$THICKNESS
 40
0.0
  9
$LIMCHECK
 70
     0
  9
$CHAMFERA
 40
0.0
  9
$CHAMFERB
 40
0.0
  9
$CHAMFERC
 40
0.0
  9
$CHAMFERD
 40
0.0
  9
$SKPOLY
 70
     0
  9
$TDCREATE
 40
2458985.705832338
  9
$TDUCREATE
 40
2458985.580832338
  9
$TDUPDATE
 40
2458985.705832627
  9
$TDUUPDATE
 40
2458985.580832627
  9
$TDINDWG
 40
0.0000000116
  9
$TDUSRTIMER
 40
0.0000000116
  9
$USRTIMER
 70
     1
  9
$ANGBASE
 50
0.0
  9
$ANGDIR
 70
     0
  9
$PDMODE
 70
     0
  9
$PDSIZE
 40
-1.0
  9
$PLINEWID
 40
0.0
  9
$SPLFRAME
 70
     0
  9
$SPLINETYPE
 70
     6
  9
$SPLINESEGS
 70
     8
  9
$HANDSEED
  5
EF
  9
$SURFTAB1
 70
     6
  9
$SURFTAB2
 70
     6
  9
$SURFTYPE
 70
     6
  9
$SURFU
 70
     6
  9
$SURFV
 70
     6
  9
$UCSBASE
  2

  9
$UCSNAME
  2

  9
$UCSORG
 10
0.0
 20
0.0
 30
0.0
  9
$UCSXDIR
 10
1.0
 20
0.0
 30
0.0
  9
$UCSYDIR
 10
0.0
 20
1.0
 30
0.0
  9
$UCSORTHOREF
  2

  9
$UCSORTHOVIEW
 70
     0
  9
$UCSORGTOP
 10
0.0
 20
0.0
 30
0.0
  9
$UCSORGBOTTOM
 10
0.0
 20
0.0
 30
0.0
  9
$UCSORGLEFT
 10
0.0
 20
0.0
 30
0.0
  9
$UCSORGRIGHT
 10
0.0
 20
0.0
 30
0.0
  9
$UCSORGFRONT
 10
0.0
 20
0.0
 30
0.0
  9
$UCSORGBACK
 10
0.0
 20
0.0
 30
0.0
  9
$PUCSBASE
  2

  9
$PUCSNAME
  2

  9
$PUCSORG
 10
0.0
 20
0.0
 30
0.0
  9
$PUCSXDIR
 10
1.0
 20
0.0
 30
0.0
  9
$PUCSYDIR
 10
0.0
 20
1.0
 30
0.0
  9
$PUCSORTHOREF
  2

  9
$PUCSORTHOVIEW
 70
     0
  9
$PUCSORGTOP
 10
0.0
 20
0.0
 30
0.0
  9
$PUCSORGBOTTOM
 10
0.0
 20
0.0
 30
0.0
  9
$PUCSORGLEFT
 10
0.0
 20
0.0
 30
0.0
  9
$PUCSORGRIGHT
 10
0.0
 20
0.0
 30
0.0
  9
$PUCSORGFRONT
 10
0.0
 20
0.0
 30
0.0
  9
$PUCSORGBACK
 10
0.0
 20
0.0
 30
0.0
  9
$USERI1
 70
     0
  9
$USERI2
 70
     0
  9
$USERI3
 70
     0
  9
$USERI4
 70
     0
  9
$USERI5
 70
     0
  9
$USERR1
 40
0.0
  9
$USERR2
 40
0.0
  9
$USERR3
 40
0.0
  9
$USERR4
 40
0.0
  9
$USERR5
 40
0.0
  9
$WORLDVIEW
 70
     1
  9
$SHADEDGE
 70
     3
  9
$SHADEDIF
 70
    70
  9
$TILEMODE
 70
     1
  9
$MAXACTVP
 70
    64
  9
$PINSBASE
 10
0.0
 20
0.0
 30
0.0
  9
$PLIMCHECK
 70
     0
  9
$PEXTMIN
 10
1.0000000000E+20
 20
1.0000000000E+20
 30
1.0000000000E+20
  9
$PEXTMAX
 10
-1.0000000000E+20
 20
-1.0000000000E+20
 30
-1.0000000000E+20
  9
$PLIMMIN
 10
0.0
 20
0.0
  9
$PLIMMAX
 10
420.0
 20
297.0
  9
$UNITMODE
 70
     0
  9
$VISRETAIN
 70
     1
  9
$PLINEGEN
 70
     0
  9
$PSLTSCALE
 70
     1
  9
$TREEDEPTH
 70
  3020
  9
$CMLSTYLE
  2
Standard
  9
$CMLJUST
 70
     0
  9
$CMLSCALE
 40
20.0
  9
$PROXYGRAPHICS
 70
     1
  9
$MEASUREMENT
 70
     1
  9
$CELWEIGHT
370
    -1
  9
$ENDCAPS
280
     0
  9
$JOINSTYLE
280
     0
  9
$LWDISPLAY
290
     1
  9
$INSUNITS
 70
     4
  9
$HYPERLINKBASE
  1

  9
$STYLESHEET
  1

  9
$XEDIT
290
     1
  9
$CEPSNTYPE
380
     0
  9
$PSTYLEMODE
290
     1
  9
$FINGERPRINTGUID
  2
{ea3ab0f8-6296-4329-89a3-7a40f2edb501}
  9
$VERSIONGUID
  2
{FAEB1C32-E019-11D5-929B-00C0DF256EC4}
  9
$EXTNAMES
290
     1
  9
$PSVPSCALE
 40
0.0
  9
$OLESTARTUP
290
     0
  0
ENDSEC
  0
SECTION
  2
CLASSES
  0
CLASS
  1
ACDBDICTIONARYWDFLT
  2
AcDbDictionaryWithDefault
  3
ObjectDBX Classes
 90
        0
280
     0
281
     0
  0
CLASS
  1
VISUALSTYLE
  2
AcDbVisualStyle
  3
ObjectDBX Classes
 90
     4095
280
     0
281
     0
  0
CLASS
  1
MATERIAL
  2
AcDbMaterial
  3
ObjectDBX Classes
 90
     1153
280
     0
281
     0
  0
CLASS
  1
SCALE
  2
AcDbScale
  3
ObjectDBX Classes
 90
     1153
280
     0
281
     0
  0
CLASS
  1
TABLESTYLE
  2
AcDbTableStyle
  3
ObjectDBX Classes
 90
     4095
280
     0
281
     0
  0
CLASS
  1
MLEADERSTYLE
  2
AcDbMLeaderStyle
  3
ACDB_MLEADERSTYLE_CLASS
 90
     4095
280
     0
281
     0
  0
CLASS
  1
SUN
  2
AcDbSun
  3
SCENEOE
 90
     1153
280
     0
281
     0
  0
CLASS
  1
ACDBPLACEHOLDER
  2
AcDbPlaceHolder
  3
ObjectDBX Classes
 90
        0
280
     0
281
     0
  0
CLASS
  1
LAYOUT
  2
AcDbLayout
  3
ObjectDBX Classes
 90
        0
280
     0
281
     0
  0
ENDSEC
  0
SECTION
  2
TABLES
  0
TABLE
  2
VPORT
  5
8
330
0
100
AcDbSymbolTable
 70
     1
  0
VPORT
  5
29
330
8
100
AcDbSymbolTableRecord
100
AcDbViewportTableRecord
  2
*Active
 70
     0
 10
0.0
 20
0.0
 11
1.0
 21
1.0
 12
139.7
 22
107.95
 13
0.0
 23
0.0
 14
10.0
 24
10.0
 15
10.0
 25
10.0
 16
0.0
 26
0.0
 36
1.0
 17
0.0
 27
0.0
 37
0.0
 40
215.9
 41
1.2941176471
 42
50.0
 43
0.0
 44
0.0
 50
0.0
 51
0.0
 71
     0
 72
  2000
 73
     1
 74
     3
 75
     0
 76
     0
 77
     0
 78
     0
281
     0
 65
     1
110
0.0
120
0.0
130
0.0
111
1.0
121
0.0
131
0.0
112
0.0
122
1.0
132
0.0
 79
     0
146
0.0
  0
ENDTAB
  0
TABLE
  2
LTYPE
  5
5
330
0
100
AcDbSymbolTable
 70
     6
  0
LTYPE
  5
14
330
5
100
AcDbSymbolTableRecord
100
AcDbLinetypeTableRecord
  2
ByBlock
 70
     0
  3

 72
    65
 73
     0
 40
0.0
  0
LTYPE
  5
15
330
5
100
AcDbSymbolTableRecord
100
AcDbLinetypeTableRecord
  2
ByLayer
 70
     0
  3

 72
    65
 73
     0
 40
0.0
  0
LTYPE
  5
16
330
5
100
AcDbSymbolTableRecord
100
AcDbLinetypeTableRecord
  2
Continuous
 70
     0
  3
Solid line
 72
    65
 73
     0
 40
0.0
  0
LTYPE
  5
6E
330
5
100
AcDbSymbolTableRecord
100
AcDbLinetypeTableRecord
  2
HIDDEN
 70
     0
  3
Hidden __ __ __ __ __ __ __ __ __ __ __ __ __ __
 72
    65
 73
     2
 40
1.905
 49
1.27
 74
     0
 49
-0.635
 74
     0
  0
LTYPE
  5
6F
330
5
100
AcDbSymbolTableRecord
100
AcDbLinetypeTableRecord
  2
PHANTOM
 70
     0
  3
Phantom ______  __  __  ______  __  __  ______
 72
    65
 73
     6
 40
12.7
 49
6.35
 74
     0
 49
-1.27
 74
     0
 49
1.27
 74
     0
 49
-1.27
 74
     0
 49
1.27
 74
     0
 49
-1.27
 74
     0
  0
LTYPE
  5
70
330
5
100
AcDbSymbolTableRecord
100
AcDbLinetypeTableRecord
  2
CENTER
 70
     0
  3
Center ____ _ ____ _ ____ _ ____ _ ____ _ ____
 72
    65
 73
     4
 40
10.16
 49
6.35
 74
     0
 49
-1.27
 74
     0
 49
1.27
 74
     0
 49
-1.27
 74
     0
  0
LTYPE
  5
71
330
5
100
AcDbSymbolTableRecord
100
AcDbLinetypeTableRecord
  2
CENTERX2
 70
     0
  3
Center (2x) ________  __  ________  __  _____
 72
    65
 73
     4
 40
20.32
 49
12.7
 74
     0
 49
-2.54
 74
     0
 49
2.54
 74
     0
 49
-2.54
 74
     0
  0
LTYPE
  5
72
330
5
100
AcDbSymbolTableRecord
100
AcDbLinetypeTableRecord
  2
DOT2
 70
     0
  3
Dot (.5x) ........................................
 72
    65
 73
     2
 40
0.635
 49
0.0
 74
     0
 49
-0.635
 74
     0
  0
ENDTAB
  0
TABLE
  2
LAYER
  5
2
330
0
100
AcDbSymbolTable
 70
    17
  0
LAYER
  5
10
330
2
100
AcDbSymbolTableRecord
100
AcDbLayerTableRecord
  2
0
 70
     0
 62
     7
  6
Continuous
370
    -3
390
F
  0
LAYER
  5
73
330
2
100
AcDbSymbolTableRecord
100
AcDbLayerTableRecord
  2
FORMAT
 70
     0
 62
     7
  6
Continuous
370
    -3
390
F
  0
LAYER
  5
74
330
2
100
AcDbSymbolTableRecord
100
AcDbLayerTableRecord
  2
YARDIMCI_GEOMETRI
 70
     0
 62
    -6
  6
Continuous
290
     0
370
    -3
390
F
  0
LAYER
  5
75
330
2
100
AcDbSymbolTableRecord
100
AcDbLayerTableRecord
  2
SAYFA_CERCEVESI
 70
     0
 62
     7
  6
Continuous
370
    25
390
F
  0
LAYER
  5
76
330
2
100
AcDbSymbolTableRecord
100
AcDbLayerTableRecord
  2
ANTET
 70
     0
 62
     7
  6
Continuous
370
    -3
390
F
  0
LAYER
  5
77
330
2
100
AcDbSymbolTableRecord
100
AcDbLayerTableRecord
  2
OLCU
 70
     0
 62
   150
  6
Continuous
370
    -3
390
F
  0
LAYER
  5
78
330
2
100
AcDbSymbolTableRecord
100
AcDbLayerTableRecord
  2
METIN
 70
     0
 62
    96
  6
Continuous
370
    -3
390
F
  0
LAYER
  5
79
330
2
100
AcDbSymbolTableRecord
100
AcDbLayerTableRecord
  2
BALON
 70
     0
 62
     5
  6
Continuous
370
    -3
390
F
  0
LAYER
  5
7A
330
2
100
AcDbSymbolTableRecord
100
AcDbLayerTableRecord
  2
VURGU
 70
     0
 62
     7
  6
Continuous
370
    -3
390
F
  0
LAYER
  5
7B
330
2
100
AcDbSymbolTableRecord
100
AcDbLayerTableRecord
  2
SILIK
 70
     0
 62
     7
  6
Continuous
370
    -3
390
F
  0
LAYER
  5
7C
330
2
100
AcDbSymbolTableRecord
100
AcDbLayerTableRecord
  2
MODEL
 70
     0
 62
     7
  6
Continuous
370
    -3
390
F
  0
LAYER
  5
7D
330
2
100
AcDbSymbolTableRecord
100
AcDbLayerTableRecord
  2
DETAYLANDıRMA
 70
     0
 62
   190
  6
Continuous
370
    -3
390
F
  0
LAYER
  5
7E
330
2
100
AcDbSymbolTableRecord
100
AcDbLayerTableRecord
  2
TOLERANS
 70
     0
 62
   230
  6
Continuous
370
    -3
390
F
  0
LAYER
  5
7F
330
2
100
AcDbSymbolTableRecord
100
AcDbLayerTableRecord
  2
MERKEZ_CIZGILERI
 70
     0
 62
    30
  6
Continuous
370
    -3
390
F
  0
LAYER
  5
80
330
2
100
AcDbSymbolTableRecord
100
AcDbLayerTableRecord
  2
KESIT-DETAY_CIZGILERI
 70
     0
 62
     7
  6
Continuous
370
    -3
390
F
  0
LAYER
  5
81
330
2
100
AcDbSymbolTableRecord
100
AcDbLayerTableRecord
  2
\U+041E\U+0421\U+0415\U+0412\U+042B\U+0415
 70
     0
 62
     7
  6
Continuous
370
    -3
390
F
  0
LAYER
  5
82
330
2
100
AcDbSymbolTableRecord
100
AcDbLayerTableRecord
  2
\U+0412\U+041E\U+0414\U+042F\U+041D\U+042B\U+0415_\U+0417\U+041D\U+0410\U+041A\U+0418
 70
     0
 62
    11
  6
Continuous
370
    -3
390
F
  0
ENDTAB
  0
TABLE
  2
STYLE
  5
3
330
0
100
AcDbSymbolTable
 70
     1
  0
STYLE
  5
11
330
3
100
AcDbSymbolTableRecord
100
AcDbTextStyleTableRecord
  2
Standard
 70
     0
 40
0.0
 41
1.0
 50
0.0
 71
     0
 42
3.5
  3
txt
  4

  0
ENDTAB
  0
TABLE
  2
VIEW
  5
6
330
0
100
AcDbSymbolTable
 70
     0
  0
ENDTAB
  0
TABLE
  2
UCS
  5
7
330
0
100
AcDbSymbolTable
 70
     0
  0
ENDTAB
  0
TABLE
  2
APPID
  5
9
330
0
100
AcDbSymbolTable
 70
     1
  0
APPID
  5
12
330
9
100
AcDbSymbolTableRecord
100
AcDbRegAppTableRecord
  2
ACAD
 70
     0
  0
ENDTAB
  0
TABLE
  2
DIMSTYLE
  5
A
330
0
100
AcDbSymbolTable
 70
     1
100
AcDbDimStyleTable
  0
DIMSTYLE
105
27
330
A
100
AcDbSymbolTableRecord
100
AcDbDimStyleTableRecord
  2
ISO-25
 70
     0
 41
2.5
 42
0.625
 43
3.75
 44
1.25
 73
     0
 74
     0
 77
     1
 78
     8
140
2.5
141
2.5
143
0.0393700787
147
0.625
171
     3
172
     1
178
     0
271
     2
272
     2
274
     3
278
    44
283
     0
284
     8
340
11
  0
ENDTAB
  0
TABLE
  2
BLOCK_RECORD
  5
1
330
0
100
AcDbSymbolTable
 70
     2
  0
BLOCK_RECORD
  5
1F
330
1
100
AcDbSymbolTableRecord
100
AcDbBlockTableRecord
  2
*Model_Space
340
22
  0
BLOCK_RECORD
  5
1B
330
1
100
AcDbSymbolTableRecord
100
AcDbBlockTableRecord
  2
*Paper_Space
340
1E
  0
BLOCK_RECORD
  5
23
330
1
100
AcDbSymbolTableRecord
100
AcDbBlockTableRecord
  2
*Paper_Space0
340
26
  0
BLOCK_RECORD
  5
88
330
1
100
AcDbSymbolTableRecord
100
AcDbBlockTableRecord
  2
SW_CENTERMARKSYMBOL_0
340
0
102
{BLKREFS
331
93
102
}
  0
ENDTAB
  0
ENDSEC
  0
SECTION
  2
BLOCKS
  0
BLOCK
  5
20
330
1F
100
AcDbEntity
  8
0
100
AcDbBlockBegin
  2
*Model_Space
 70
     0
 10
0.0
 20
0.0
 30
0.0
  3
*Model_Space
  1

  0
ENDBLK
  5
21
330
1F
100
AcDbEntity
  8
0
100
AcDbBlockEnd
  0
BLOCK
  5
1C
330
1B
100
AcDbEntity
 67
     1
  8
0
100
AcDbBlockBegin
  2
*Paper_Space
 70
     0
 10
0.0
 20
0.0
 30
0.0
  3
*Paper_Space
  1

  0
ENDBLK
  5
1D
330
1B
100
AcDbEntity
 67
     1
  8
0
100
AcDbBlockEnd
  0
BLOCK
  5
24
330
23
100
AcDbEntity
  8
0
100
AcDbBlockBegin
  2
*Paper_Space0
 70
     0
 10
0.0
 20
0.0
 30
0.0
  3
*Paper_Space0
  1

  0
ENDBLK
  5
25
330
23
100
AcDbEntity
  8
0
100
AcDbBlockEnd
  0
BLOCK
  5
89
330
88
100
AcDbEntity
  8
0
100
AcDbBlockBegin
  2
SW_CENTERMARKSYMBOL_0
 70
     0
 10
0.0
 20
0.0
 30
0.0
  3
SW_CENTERMARKSYMBOL_0
  1

  0
LINE
  5
8B
330
88
100
AcDbEntity
  8
FORMAT
 62
     0
100
AcDbLine
 10
0.0
 20
0.0
 30
0.0
 11
0.0
 21
2.5
 31
0.0
  0
LINE
  5
8C
330
88
100
AcDbEntity
  8
FORMAT
 62
     0
100
AcDbLine
 10
0.0
 20
0.0
 30
0.0
 11
-2.5
 21
0.0
 31
0.0
  0
LINE
  5
8D
330
88
100
AcDbEntity
  8
FORMAT
 62
     0
100
AcDbLine
 10
0.0
 20
0.0
 30
0.0
 11
0.0
 21
-2.5
 31
0.0
  0
LINE
  5
8E
330
88
100
AcDbEntity
  8
FORMAT
 62
     0
100
AcDbLine
 10
0.0
 20
0.0
 30
0.0
 11
2.5
 21
0.0
 31
0.0
  0
LINE
  5
8F
330
88
100
AcDbEntity
  8
FORMAT
 62
     0
100
AcDbLine
 10
0.0
 20
5.0
 30
0.0
 11
0.0
 21
102.5
 31
0.0
  0
LINE
  5
90
330
88
100
AcDbEntity
  8
FORMAT
 62
     0
100
AcDbLine
 10
-5.0
 20
0.0
 30
0.0
 11
-102.5
 21
0.0
 31
0.0
  0
LINE
  5
91
330
88
100
AcDbEntity
  8
FORMAT
 62
     0
100
AcDbLine
 10
0.0
 20
-5.0
 30
0.0
 11
0.0
 21
-102.5
 31
0.0
  0
LINE
  5
92
330
88
100
AcDbEntity
  8
FORMAT
 62
     0
100
AcDbLine
 10
5.0
 20
0.0
 30
0.0
 11
102.5
 21
0.0
 31
0.0
  0
ENDBLK
  5
8A
330
88
100
AcDbEntity
  8
0
100
AcDbBlockEnd
  0
ENDSEC
  0
SECTION
  2
ENTITIES
  0
CIRCLE
  5
83
330
1F
100
AcDbEntity
  8
0
  6
Continuous
 62
     7
370
    25
100
AcDbCircle
 10
135.7204942573
 20
109.882282191
 30
0.0
 40
100.0
  0
CIRCLE
  5
84
330
1F
100
AcDbEntity
  8
0
  6
Continuous
 62
     7
370
    25
100
AcDbCircle
 10
135.7204942573
 20
109.882282191
 30
0.0
 40
88.1
  0
CIRCLE
  5
85
330
1F
100
AcDbEntity
  8
0
  6
Continuous
 62
     7
370
    25
100
AcDbCircle
 10
135.7204942573
 20
109.882282191
 30
0.0
 40
88.02730057872176
  0
CIRCLE
  5
86
330
1F
100
AcDbEntity
  8
0
  6
Continuous
 62
     7
370
    25
100
AcDbCircle
 10
135.7204942573
 20
109.882282191
 30
0.0
 40
79.37269942127828
  0
CIRCLE
  5
87
330
1F
100
AcDbEntity
  8
0
  6
Continuous
 62
     7
370
    25
100
AcDbCircle
 10
135.7204942573
 20
109.882282191
 30
0.0
 40
79.30000000000001
  0
INSERT
  5
93
330
1F
100
AcDbEntity
  8
FORMAT
 62
     7
100
AcDbBlockReference
  2
SW_CENTERMARKSYMBOL_0
 10
135.7204942573
 20
109.882282191
 30
0.0
  0
ARC
  5
94
330
1F
100
AcDbEntity
  8
0
  6
Continuous
 62
     7
370
    25
100
AcDbCircle
 10
-226.7072320851
 20
207.882282191
 30
0.0
 40
2.0
100
AcDbArc
 50
80.2175929682
 51
90.0
  0
ARC
  5
95
330
1F
100
AcDbEntity
  8
0
  6
Continuous
 62
     7
370
    25
100
AcDbCircle
 10
-226.7072320851
 20
11.882282191
 30
0.0
 40
2.000000000000002
100
AcDbArc
 50
270.0
 51
279.7824070318
  0
LINE
  5
96
330
1F
100
AcDbEntity
  8
0
  6
Continuous
 62
     7
370
    25
100
AcDbLine
 10
-226.7072325284
 20
209.8822836811
 30
0.0
 11
-338.536081248
 21
209.8822836811
 31
0.0
  0
LINE
  5
97
330
1F
100
AcDbEntity
  8
0
  6
Continuous
 62
     7
370
    25
100
AcDbLine
 10
-338.536081248
 20
9.8822807009
 30
0.0
 11
-226.7072325284
 21
9.8822807009
 31
0.0
  0
LINE
  5
98
330
1F
100
AcDbEntity
  8
0
  6
Continuous
 62
     7
370
    25
100
AcDbLine
 10
-226.3674189979
 20
9.911360317
 30
0.0
 11
-168.7047419781
 21
19.8531989987
 31
0.0
  0
LINE
  5
99
330
1F
100
AcDbEntity
  8
0
  6
Continuous
 62
     7
370
    25
100
AcDbLine
 10
-168.7047419781
 20
199.9113653834
 30
0.0
 11
-226.3674189979
 21
209.8532040651
 31
0.0
  0
ARC
  5
9A
330
1F
100
AcDbEntity
  8
0
  6
Continuous
 62
     7
370
    25
100
AcDbCircle
 10
-168.3649297338
 20
201.882282191
 30
0.0
 40
2.000000000000022
100
AcDbArc
 50
260.2175929682
 51
270.0
  0
ARC
  5
9B
330
1F
100
AcDbEntity
  8
0
  6
Continuous
 62
     7
370
    25
100
AcDbCircle
 10
-168.3649297338
 20
17.882282191
 30
0.0
 40
2.000000000000008
100
AcDbArc
 50
90.0
 51
99.7824070318
  0
LINE
  5
9C
330
1F
100
AcDbEntity
  8
0
  6
Continuous
 62
     7
370
    25
100
AcDbLine
 10
-63.5360752875
 20
199.8822857673
 30
0.0
 11
-168.3649284477
 21
199.8822857673
 31
0.0
  0
LINE
  5
9D
330
1F
100
AcDbEntity
  8
0
  6
Continuous
 62
     7
370
    25
100
AcDbLine
 10
-168.3649284477
 20
19.8822786147
 30
0.0
 11
-63.5360752875
 21
19.8822786147
 31
0.0
  0
LINE
  5
9E
330
1F
100
AcDbEntity
  8
0
  6
Continuous
 62
     7
370
    25
100
AcDbLine
 10
-338.536081248
 20
209.8822836811
 30
0.0
 11
-338.536081248
 21
9.8822807009
 31
0.0
  0
LINE
  5
9F
330
1F
100
AcDbEntity
  8
0
  6
Continuous
 62
     7
370
    25
100
AcDbLine
 10
-63.5360752875
 20
199.8822857673
 30
0.0
 11
-63.5360752875
 21
19.8822786147
 31
0.0
  0
LINE
  5
A0
330
1F
100
AcDbEntity
  8
0
  6
Continuous
 62
     1
370
    25
100
AcDbLine
 10
-226.3674189979
 20
209.8532040651
 30
0.0
 11
-226.3674189979
 21
9.911360317
 31
0.0
  0
LINE
  5
A1
330
1F
100
AcDbEntity
  8
0
  6
Continuous
 62
     1
370
    25
100
AcDbLine
 10
-226.7072325284
 20
209.8822836811
 30
0.0
 11
-226.7072325284
 21
9.8822807009
 31
0.0
  0
LINE
  5
A2
330
1F
100
AcDbEntity
  8
0
  6
Continuous
 62
     1
370
    25
100
AcDbLine
 10
-168.7047419781
 20
199.9113653834
 30
0.0
 11
-168.7047419781
 21
19.8531989987
 31
0.0
  0
LINE
  5
A3
330
1F
100
AcDbEntity
  8
0
  6
Continuous
 62
     1
370
    25
100
AcDbLine
 10
-168.3649284477
 20
199.8822857673
 30
0.0
 11
-168.3649284477
 21
19.8822786147
 31
0.0
  0
ARC
  5
A4
330
1F
100
AcDbEntity
  8
0
  6
Continuous
 62
     7
370
    25
100
AcDbCircle
 10
233.7204942573
 20
465.6122447328
 30
0.0
 40
2.0
100
AcDbArc
 50
350.2175929682
 51
0.0
  0
ARC
  5
A5
330
1F
100
AcDbEntity
  8
0
  6
Continuous
 62
     7
370
    25
100
AcDbCircle
 10
37.7204942573
 20
465.6122447328
 30
0.0
 40
2.0
100
AcDbArc
 50
180.0
 51
189.7824070318
  0
LINE
  5
A6
330
1F
100
AcDbEntity
  8
0
  6
Continuous
 62
     7
370
    25
100
AcDbLine
 10
235.7204957474
 20
465.6122451761
 30
0.0
 11
235.7204957474
 21
577.4410938957
 31
0.0
  0
LINE
  5
A7
330
1F
100
AcDbEntity
  8
0
  6
Continuous
 62
     7
370
    25
100
AcDbLine
 10
35.7204927672
 20
577.4410938957
 30
0.0
 11
35.7204927672
 21
465.6122451761
 31
0.0
  0
LINE
  5
A8
330
1F
100
AcDbEntity
  8
0
  6
Continuous
 62
     7
370
    25
100
AcDbLine
 10
35.7495723833
 20
465.2724316456
 30
0.0
 11
45.691411065
 21
407.6097546258
 31
0.0
  0
LINE
  5
A9
330
1F
100
AcDbEntity
  8
0
  6
Continuous
 62
     7
370
    25
100
AcDbLine
 10
225.7495774497
 20
407.6097546258
 30
0.0
 11
235.6914161314
 21
465.2724316456
 31
0.0
  0
ARC
  5
AA
330
1F
100
AcDbEntity
  8
0
  6
Continuous
 62
     7
370
    25
100
AcDbCircle
 10
227.7204942573
 20
407.2699423815
 30
0.0
 40
2.0
100
AcDbArc
 50
170.2175929682
 51
180.0
  0
ARC
  5
AB
330
1F
100
AcDbEntity
  8
0
  6
Continuous
 62
     7
370
    25
100
AcDbCircle
 10
43.7204942573
 20
407.2699423815
 30
0.0
 40
2.000000000000008
100
AcDbArc
 50
0.0
 51
9.7824070318
  0
LINE
  5
AC
330
1F
100
AcDbEntity
  8
0
  6
Continuous
 62
     7
370
    25
100
AcDbLine
 10
225.7204978336
 20
302.4410879352
 30
0.0
 11
225.7204978336
 21
407.2699410954
 31
0.0
  0
LINE
  5
AD
330
1F
100
AcDbEntity
  8
0
  6
Continuous
 62
     7
370
    25
100
AcDbLine
 10
45.720490681
 20
407.2699410954
 30
0.0
 11
45.720490681
 21
302.4410879352
 31
0.0
  0
LINE
  5
AE
330
1F
100
AcDbEntity
  8
0
  6
Continuous
 62
     7
370
    25
100
AcDbLine
 10
235.7204957474
 20
577.4410938957
 30
0.0
 11
35.7204927672
 21
577.4410938957
 31
0.0
  0
LINE
  5
AF
330
1F
100
AcDbEntity
  8
0
  6
Continuous
 62
     7
370
    25
100
AcDbLine
 10
225.7204978336
 20
302.4410879352
 30
0.0
 11
45.720490681
 21
302.4410879352
 31
0.0
  0
LINE
  5
B0
330
1F
100
AcDbEntity
  8
0
  6
Continuous
 62
     1
370
    25
100
AcDbLine
 10
235.6914161314
 20
465.2724316456
 30
0.0
 11
35.7495723833
 21
465.2724316456
 31
0.0
  0
LINE
  5
B1
330
1F
100
AcDbEntity
  8
0
  6
Continuous
 62
     1
370
    25
100
AcDbLine
 10
235.7204957474
 20
465.6122451761
 30
0.0
 11
35.7204927672
 21
465.6122451761
 31
0.0
  0
LINE
  5
B2
330
1F
100
AcDbEntity
  8
0
  6
Continuous
 62
     1
370
    25
100
AcDbLine
 10
225.7495774497
 20
407.6097546258
 30
0.0
 11
45.691411065
 21
407.6097546258
 31
0.0
  0
LINE
  5
B3
330
1F
100
AcDbEntity
  8
0
  6
Continuous
 62
     1
370
    25
100
AcDbLine
 10
225.7204978336
 20
407.2699410954
 30
0.0
 11
45.720490681
 21
407.2699410954
 31
0.0
  0
ARC
  5
B4
330
1F
100
AcDbEntity
  8
0
  6
Continuous
 62
     7
370
    25
100
AcDbCircle
 10
491.2182905537
 20
11.882282191
 30
0.0
 40
2.000000000000002
100
AcDbArc
 50
260.2175929682
 51
270.0
  0
ARC
  5
B5
330
1F
100
AcDbEntity
  8
0
  6
Continuous
 62
     7
370
    25
100
AcDbCircle
 10
491.2182905537
 20
207.882282191
 30
0.0
 40
2.0
100
AcDbArc
 50
90.0
 51
99.7824070318
  0
LINE
  5
B6
330
1F
100
AcDbEntity
  8
0
  6
Continuous
 62
     7
370
    25
100
AcDbLine
 10
491.218290997
 20
9.8822807009
 30
0.0
 11
603.0471397166
 21
9.8822807009
 31
0.0
  0
LINE
  5
B7
330
1F
100
AcDbEntity
  8
0
  6
Continuous
 62
     7
370
    25
100
AcDbLine
 10
603.0471397166
 20
209.8822836811
 30
0.0
 11
491.218290997
 21
209.8822836811
 31
0.0
  0
LINE
  5
B8
330
1F
100
AcDbEntity
  8
0
  6
Continuous
 62
     7
370
    25
100
AcDbLine
 10
490.8784774666
 20
209.8532040651
 30
0.0
 11
433.2158004468
 21
199.9113653834
 31
0.0
  0
LINE
  5
B9
330
1F
100
AcDbEntity
  8
0
  6
Continuous
 62
     7
370
    25
100
AcDbLine
 10
433.2158004468
 20
19.8531989987
 30
0.0
 11
490.8784774666
 21
9.911360317
 31
0.0
  0
ARC
  5
BA
330
1F
100
AcDbEntity
  8
0
  6
Continuous
 62
     7
370
    25
100
AcDbCircle
 10
432.8759882024
 20
17.882282191
 30
0.0
 40
2.000000000000008
100
AcDbArc
 50
80.2175929682
 51
90.0
  0
ARC
  5
BB
330
1F
100
AcDbEntity
  8
0
  6
Continuous
 62
     7
370
    25
100
AcDbCircle
 10
432.8759882024
 20
201.882282191
 30
0.0
 40
2.000000000000022
100
AcDbArc
 50
270.0
 51
279.7824070318
  0
LINE
  5
BC
330
1F
100
AcDbEntity
  8
0
  6
Continuous
 62
     7
370
    25
100
AcDbLine
 10
328.0471337562
 20
19.8822786147
 30
0.0
 11
432.8759869163
 21
19.8822786147
 31
0.0
  0
LINE
  5
BD
330
1F
100
AcDbEntity
  8
0
  6
Continuous
 62
     7
370
    25
100
AcDbLine
 10
432.8759869163
 20
199.8822857673
 30
0.0
 11
328.0471337562
 21
199.8822857673
 31
0.0
  0
LINE
  5
BE
330
1F
100
AcDbEntity
  8
0
  6
Continuous
 62
     7
370
    25
100
AcDbLine
 10
603.0471397166
 20
109.882282191
 30
0.0
 11
603.0471397166
 21
209.8822836811
 31
0.0
  0
LINE
  5
BF
330
1F
100
AcDbEntity
  8
0
  6
Continuous
 62
     7
370
    25
100
AcDbLine
 10
603.0471397166
 20
9.8822807009
 30
0.0
 11
603.0471397166
 21
109.882282191
 31
0.0
  0
LINE
  5
C0
330
1F
100
AcDbEntity
  8
0
  6
Continuous
 62
     7
370
    25
100
AcDbLine
 10
328.0471337562
 20
109.882282191
 30
0.0
 11
328.0471337562
 21
199.8822857673
 31
0.0
  0
LINE
  5
C1
330
1F
100
AcDbEntity
  8
0
  6
Continuous
 62
     7
370
    25
100
AcDbLine
 10
328.0471337562
 20
19.8822786147
 30
0.0
 11
328.0471337562
 21
109.882282191
 31
0.0
  0
LINE
  5
C2
330
1F
100
AcDbEntity
  8
0
  6
Continuous
 62
     1
370
    25
100
AcDbLine
 10
490.8784774666
 20
109.882282191
 30
0.0
 11
490.8784774666
 21
209.8532040651
 31
0.0
  0
LINE
  5
C3
330
1F
100
AcDbEntity
  8
0
  6
Continuous
 62
     1
370
    25
100
AcDbLine
 10
490.8784774666
 20
9.911360317
 30
0.0
 11
490.8784774666
 21
109.882282191
 31
0.0
  0
LINE
  5
C4
330
1F
100
AcDbEntity
  8
0
  6
Continuous
 62
     1
370
    25
100
AcDbLine
 10
491.218290997
 20
109.882282191
 30
0.0
 11
491.218290997
 21
209.8822836811
 31
0.0
  0
LINE
  5
C5
330
1F
100
AcDbEntity
  8
0
  6
Continuous
 62
     1
370
    25
100
AcDbLine
 10
491.218290997
 20
9.8822807009
 30
0.0
 11
491.218290997
 21
109.882282191
 31
0.0
  0
LINE
  5
C6
330
1F
100
AcDbEntity
  8
0
  6
Continuous
 62
     1
370
    25
100
AcDbLine
 10
433.2158004468
 20
109.882282191
 30
0.0
 11
433.2158004468
 21
199.9113653834
 31
0.0
  0
LINE
  5
C7
330
1F
100
AcDbEntity
  8
0
  6
Continuous
 62
     1
370
    25
100
AcDbLine
 10
433.2158004468
 20
19.8531989987
 30
0.0
 11
433.2158004468
 21
109.882282191
 31
0.0
  0
LINE
  5
C8
330
1F
100
AcDbEntity
  8
0
  6
Continuous
 62
     1
370
    25
100
AcDbLine
 10
432.8759869163
 20
109.882282191
 30
0.0
 11
432.8759869163
 21
199.8822857673
 31
0.0
  0
LINE
  5
C9
330
1F
100
AcDbEntity
  8
0
  6
Continuous
 62
     1
370
    25
100
AcDbLine
 10
432.8759869163
 20
19.8822786147
 30
0.0
 11
432.8759869163
 21
109.882282191
 31
0.0
  0
ARC
  5
CA
330
1F
100
AcDbEntity
  8
0
  6
Continuous
 62
     7
370
    25
100
AcDbCircle
 10
37.7204942573
 20
-256.2249893927
 30
0.0
 40
2.0
100
AcDbArc
 50
170.2175929682
 51
180.0
  0
ARC
  5
CB
330
1F
100
AcDbEntity
  8
0
  6
Continuous
 62
     7
370
    25
100
AcDbCircle
 10
233.7204942573
 20
-256.2249893927
 30
0.0
 40
2.0
100
AcDbArc
 50
0.0
 51
9.7824070318
  0
LINE
  5
CC
330
1F
100
AcDbEntity
  8
0
  6
Continuous
 62
     7
370
    25
100
AcDbLine
 10
35.7204927672
 20
-256.224989836
 30
0.0
 11
35.7204927672
 21
-368.0538385556
 31
0.0
  0
LINE
  5
CD
330
1F
100
AcDbEntity
  8
0
  6
Continuous
 62
     7
370
    25
100
AcDbLine
 10
235.7204957474
 20
-368.0538385556
 30
0.0
 11
235.7204957474
 21
-256.224989836
 31
0.0
  0
LINE
  5
CE
330
1F
100
AcDbEntity
  8
0
  6
Continuous
 62
     7
370
    25
100
AcDbLine
 10
235.6914161314
 20
-255.8851763056
 30
0.0
 11
225.7495774497
 21
-198.2224992857
 31
0.0
  0
LINE
  5
CF
330
1F
100
AcDbEntity
  8
0
  6
Continuous
 62
     7
370
    25
100
AcDbLine
 10
45.691411065
 20
-198.2224992857
 30
0.0
 11
35.7495723833
 21
-255.8851763056
 31
0.0
  0
ARC
  5
D0
330
1F
100
AcDbEntity
  8
0
  6
Continuous
 62
     7
370
    25
100
AcDbCircle
 10
43.7204942573
 20
-197.8826870414
 30
0.0
 40
2.000000000000012
100
AcDbArc
 50
350.2175929682
 51
0.0
  0
ARC
  5
D1
330
1F
100
AcDbEntity
  8
0
  6
Continuous
 62
     7
370
    25
100
AcDbCircle
 10
227.7204942573
 20
-197.8826870414
 30
0.0
 40
2.0
100
AcDbArc
 50
180.0
 51
189.7824070318
  0
LINE
  5
D2
330
1F
100
AcDbEntity
  8
0
  6
Continuous
 62
     7
370
    25
100
AcDbLine
 10
45.720490681
 20
-93.0538325951
 30
0.0
 11
45.720490681
 21
-197.8826857553
 31
0.0
  0
LINE
  5
D3
330
1F
100
AcDbEntity
  8
0
  6
Continuous
 62
     7
370
    25
100
AcDbLine
 10
225.7204978336
 20
-197.8826857553
 30
0.0
 11
225.7204978336
 21
-93.0538325951
 31
0.0
  0
LINE
  5
D4
330
1F
100
AcDbEntity
  8
0
  6
Continuous
 62
     7
370
    25
100
AcDbLine
 10
35.7204927672
 20
-368.0538385556
 30
0.0
 11
235.7204957474
 21
-368.0538385556
 31
0.0
  0
LINE
  5
D5
330
1F
100
AcDbEntity
  8
0
  6
Continuous
 62
     7
370
    25
100
AcDbLine
 10
45.720490681
 20
-93.0538325951
 30
0.0
 11
225.7204978336
 21
-93.0538325951
 31
0.0
  0
LINE
  5
D6
330
1F
100
AcDbEntity
  8
0
  6
Continuous
 62
     1
370
    25
100
AcDbLine
 10
35.7495723833
 20
-255.8851763056
 30
0.0
 11
235.6914161314
 21
-255.8851763056
 31
0.0
  0
LINE
  5
D7
330
1F
100
AcDbEntity
  8
0
  6
Continuous
 62
     1
370
    25
100
AcDbLine
 10
35.7204927672
 20
-256.224989836
 30
0.0
 11
235.7204957474
 21
-256.224989836
 31
0.0
  0
LINE
  5
D8
330
1F
100
AcDbEntity
  8
0
  6
Continuous
 62
     1
370
    25
100
AcDbLine
 10
45.691411065
 20
-198.2224992857
 30
0.0
 11
225.7495774497
 21
-198.2224992857
 31
0.0
  0
LINE
  5
D9
330
1F
100
AcDbEntity
  8
0
  6
Continuous
 62
     1
370
    25
100
AcDbLine
 10
45.720490681
 20
-197.8826857553
 30
0.0
 11
225.7204978336
 21
-197.8826857553
 31
0.0
  0
LINE
  5
DA
330
1F
100
AcDbEntity
  8
0
  6
Continuous
 62
     7
370
    25
100
AcDbLine
 10
508.2678091258
 20
-126.8834477818
 30
0.0
 11
429.1928718639
 21
-81.2344581666
 31
0.0
  0
LINE
  5
DB
330
1F
100
AcDbEntity
  8
0
  6
Continuous
 62
     7
370
    25
100
AcDbLine
 10
329.2010015951
 20
-254.4442316156
 30
0.0
 11
408.275938857
 21
-300.0932212309
 31
0.0
  0
LINE
  5
DC
330
1F
100
AcDbEntity
  8
0
  6
Continuous
 62
     7
370
    25
100
AcDbLine
 10
414.9986219781
 20
-303.0793553612
 30
0.0
 11
460.0995957847
 21
-317.7216994324
 31
0.0
  0
LINE
  5
DD
330
1F
100
AcDbEntity
  8
0
  6
Continuous
 62
     7
370
    25
100
AcDbLine
 10
549.449734516
 20
-162.9459502129
 30
0.0
 11
514.2156250712
 21
-131.2118402763
 31
0.0
  0
LINE
  5
DE
330
1F
100
AcDbEntity
  8
0
  6
Continuous
 62
     7
370
    25
100
AcDbLine
 10
618.6476500256
 20
-202.1510643438
 30
0.0
 11
547.1552390096
 21
-160.8793739569
 31
0.0
  0
LINE
  5
DF
330
1F
100
AcDbEntity
  8
0
  6
Continuous
 62
     7
370
    25
100
AcDbLine
 10
457.1625504993
 20
-316.7681706689
 30
0.0
 11
528.6549615153
 21
-358.0398610558
 31
0.0
  0
LWPOLYLINE
  5
E0
330
1F
100
AcDbEntity
  8
0
  6
Continuous
 62
     7
370
    25
100
AcDbPolyline
 90
      122
 70
   128
 43
0.0
 10
308.4862575571
 20
-208.6597510905
 10
308.5815726551
 20
-204.3665683029
 10
308.8672492626
 20
-199.9749173493
 10
309.3425234682
 20
-195.4966340026
 10
310.0061150613
 20
-190.9437897306
 10
310.8562275325
 20
-186.3286643194
 10
311.8905796836
 20
-181.6636911233
 10
313.1063740175
 20
-176.9614509779
 10
314.5003388851
 20
-172.2346204925
 10
316.0687179486
 20
-167.4959370682
 10
317.8072754497
 20
-162.7581821677
 10
319.7113278198
 20
-158.0341280863
 10
321.7757436802
 20
-153.3365044912
 10
323.9949596467
 20
-148.6779740886
 10
326.3629855987
 20
-144.0711082889
 10
328.8734468251
 20
-139.5283111646
 10
331.5195682203
 20
-135.0618346581
 10
334.2942216983
 20
-130.6837207908
 10
337.1899261936
 20
-126.4057712448
 10
340.1988713683
 20
-122.2395215095
 10
343.3129492224
 20
-118.1962043817
 10
346.5237646306
 20
-114.2867134652
 10
349.8226590497
 20
-110.521589484
 10
353.2007421287
 20
-106.9109837835
 10
356.6489075143
 20
-103.4646309553
 10
360.157857875
 20
-100.191822223
 10
363.7181338777
 20
-97.1013765475
 10
367.3201392116
 20
-94.2016322646
 10
370.9541610038
 20
-91.5003987969
 10
374.6104037341
 20
-89.0049614103
 10
378.2790114608
 20
-86.7220501323
 10
381.9500936684
 20
-84.657818746
 10
385.6137535855
 20
-82.8178223597
 10
389.2601151847
 20
-81.2070322384
 10
392.8793487015
 20
-79.8297906533
 10
396.4616964819
 20
-78.689808128
 10
399.9975009706
 20
-77.7901533648
 10
403.4772303944
 20
-77.1332566691
 10
406.8915070796
 20
-76.7208814349
 10
410.2311206227
 20
-76.5541530435
 10
413.4870753056
 20
-76.6335132402
 10
416.6505861447
 20
-76.9587467501
 10
419.713131574
 20
-77.5289751995
 10
422.6664508112
 20
-78.34266472
 10
425.5025833703
 20
-79.3976274735
 10
428.2138848667
 20
-80.6910064439
 10
430.7930454562
 20
-82.21932563
 10
433.233110909
 20
-83.9784657122
 10
435.5275063166
 20
-85.9636716596
 10
437.6700413606
 20
-88.1696044419
 10
439.6549471913
 20
-90.5903106141
 10
441.4768658903
 20
-93.2192679438
 10
443.1308926184
 20
-96.0493884567
 10
444.6125598094
 20
-99.0730427697
 10
445.9178845863
 20
-102.2820722633
 10
447.0433371504
 20
-105.6678392687
 10
447.9858881971
 20
-109.2212073005
 10
448.7429931103
 20
-112.9326018922
 10
449.3126183047
 20
-116.7920121194
 10
449.6932254201
 20
-120.7890369868
 10
449.883781859
 20
-124.9129040605
 10
449.883781859
 20
-129.1524915231
 10
449.6932254201
 20
-133.4963703779
 10
449.3126183047
 20
-137.9328348671
 10
448.7429931103
 20
-142.4499203447
 10
447.9858881971
 20
-147.0354496627
 10
447.0433371504
 20
-151.677063969
 10
445.9178845863
 20
-156.3622508461
 10
444.6125598094
 20
-161.0783762476
 10
443.1308926184
 20
-165.8127270862
 10
441.4768658903
 20
-170.5525462102
 10
439.6549471913
 20
-175.2850460947
 10
437.6700413606
 20
-179.9974757583
 10
435.5275063166
 20
-184.6771268478
 10
433.233110909
 20
-189.3113853461
 10
430.7930454562
 20
-193.8877650335
 10
428.2138848667
 20
-198.3939196513
 10
425.5025833703
 20
-202.8177006969
 10
422.6664508112
 20
-207.1471924028
 10
419.713131574
 20
-211.3707117343
 10
416.6505861447
 20
-215.4768798718
 10
413.4870753056
 20
-219.4546252507
 10
410.2311206227
 20
-223.2932307065
 10
406.8915070796
 20
-226.9823380381
 10
403.4772303944
 20
-230.5120027559
 10
399.9975009706
 20
-233.8727161358
 10
396.4616964819
 20
-237.0554143399
 10
392.8793487015
 20
-240.0515225226
 10
389.2601151847
 20
-242.8529590103
 10
385.6137535855
 20
-245.4521683791
 10
381.9500936684
 20
-247.8421436957
 10
378.2790114608
 20
-250.0164536064
 10
374.6104037341
 20
-251.9692266505
 10
370.9541610038
 20
-253.6951972652
 10
367.3201392116
 20
-255.1897160497
 10
363.7181338777
 20
-256.448758603
 10
360.157857875
 20
-257.4689201035
 10
356.6489075143
 20
-258.2474592223
 10
353.2007421287
 20
-258.7822734067
 10
349.8226590497
 20
-259.0719194101
 10
346.5237646306
 20
-259.1156178521
 10
343.3129492224
 20
-258.9132554974
 10
340.1988713683
 20
-258.465376129
 10
337.1899261936
 20
-257.773180545
 10
334.2942216983
 20
-256.838540245
 10
331.5195682203
 20
-255.6639730941
 10
328.8734468251
 20
-254.2526433197
 10
326.3629855987
 20
-252.6083630308
 10
323.9949596467
 20
-250.735561799
 10
321.7757436802
 20
-248.6392836123
 10
319.7113278198
 20
-246.3251838349
 10
317.8072754497
 20
-243.7995018264
 10
316.0687179486
 20
-241.0690426901
 10
314.5003388851
 20
-238.1411711883
 10
313.1063740175
 20
-235.0237782812
 10
311.8905796836
 20
-231.7252643946
 10
310.8562275325
 20
-228.2545287721
 10
310.0061150613
 20
-224.6209223279
 10
309.3425234682
 20
-220.834244601
 10
308.8672492626
 20
-216.9047011718
 10
308.5815726551
 20
-212.8428854086
 10
308.4862575571
 20
-208.6597510905
  0
LWPOLYLINE
  5
E1
330
1F
100
AcDbEntity
  8
0
  6
Continuous
 62
     7
370
    25
100
AcDbPolyline
 90
      114
 70
   128
 43
0.0
 10
316.9008284471
 20
-203.8021227133
 10
316.9971076542
 20
-199.7486466647
 10
317.2856397108
 20
-195.59654217
 10
317.7655342646
 20
-191.3586438582
 10
318.4353161761
 20
-187.0480448605
 10
319.2929044445
 20
-182.6780736149
 10
320.3356543552
 20
-178.2622379756
 10
321.5603364058
 20
-173.8141864273
 10
322.963173185
 20
-169.3476662639
 10
324.5398288359
 20
-164.876481001
 10
326.2854195923
 20
-160.4144614792
 10
328.1945611944
 20
-155.9753837392
 10
330.261347815
 20
-151.5729811865
 10
332.4793942065
 20
-147.2208533405
 10
334.841835701
 20
-142.93245975
 10
337.3413808937
 20
-138.7210500364
 10
339.9702984721
 20
-134.5996441199
 10
342.720461997
 20
-130.5809789913
 10
345.5833736099
 20
-126.6774798169
 10
348.5501798387
 20
-122.9012112701
 10
351.6117163778
 20
-119.2638395128
 10
354.7585159914
 20
-115.7766093818
 10
357.9808546114
 20
-112.4503056099
 10
361.2687697764
 20
-109.2952117624
 10
364.6121001447
 20
-106.321069176
 10
368.0005118358
 20
-103.5370739191
 10
371.4235306993
 20
-100.9518338292
 10
374.8705768885
 20
-98.5733424697
 10
378.3309956471
 20
-96.40894919
 10
381.7940907306
 20
-94.4653398317
 10
385.2491583212
 20
-92.7485232337
 10
388.6855186379
 20
-91.2638129837
 10
392.0925500164
 20
-90.0157894937
 10
395.4597223301
 20
-89.0083172087
 10
398.7766279414
 20
-88.244508487
 10
402.0330133124
 20
-87.7267175202
 10
405.2188119319
 20
-87.4565517426
 10
408.3241811934
 20
-87.4348444586
 10
411.3395168841
 20
-87.6616708131
 10
414.2555045502
 20
-88.1363120553
 10
417.0631274005
 20
-88.8573118131
 10
419.7537084524
 20
-89.8224456787
 10
422.3189289718
 20
-91.0287227316
 10
424.750862717
 20
-92.472414439
 10
427.0419917438
 20
-94.1490637827
 10
429.1852327476
 20
-96.0534852622
 10
431.1739686731
 20
-98.179789232
 10
433.002040812
 20
-100.5214107984
 10
434.6638067551
 20
-103.0711067836
 10
436.1541298552
 20
-105.8209983098
 10
437.4683950323
 20
-108.7625875318
 10
438.6025509207
 20
-111.8867758914
 10
439.5530887951
 20
-115.1839112642
 10
440.317068913
 20
-118.6438016508
 10
440.8921257824
 20
-122.2557539606
 10
441.2764892358
 20
-126.0086017705
 10
441.4689686246
 20
-129.8907456284
 10
441.4689686246
 20
-133.8901865146
 10
441.2764892358
 20
-137.9945623444
 10
440.8921257824
 20
-142.1911867515
 10
440.317068913
 20
-146.4670855902
 10
439.5530887951
 20
-150.8090486455
 10
438.6025509207
 20
-155.203651688
 10
437.4683950323
 20
-159.6373085634
 10
436.1541298552
 20
-164.0963160597
 10
434.6638067551
 20
-168.5668980114
 10
433.002040812
 20
-173.0352281151
 10
431.1739686731
 20
-177.4874968468
 10
429.1852327476
 20
-181.9099464413
 10
427.0419917438
 20
-186.2889013119
 10
424.750862717
 20
-190.6108319236
 10
422.3189289718
 20
-194.8623745663
 10
419.7537084524
 20
-199.0303921885
 10
417.0631274005
 20
-203.1020048135
 10
414.2555045502
 20
-207.0646169145
 10
411.3395168841
 20
-210.9059858532
 10
408.3241811934
 20
-214.6142446917
 10
405.2188119319
 20
-218.1779204401
 10
402.0330133124
 20
-221.5859994549
 10
398.7766279414
 20
-224.8279510091
 10
395.4597223301
 20
-227.8937599906
 10
392.0925500164
 20
-230.7739421078
 10
388.6855186379
 20
-233.4595933169
 10
385.2491583212
 20
-235.9424202371
 10
381.7940907306
 20
-238.214739768
 10
378.3309956471
 20
-240.2695348847
 10
374.8705768885
 20
-242.100456061
 10
371.4235306993
 20
-243.7018395175
 10
368.0005118358
 20
-245.0687328839
 10
364.6121001447
 20
-246.1969144926
 10
361.2687697764
 20
-247.0828989842
 10
357.9808546114
 20
-247.723951183
 10
354.7585159914
 20
-248.1180803901
 10
351.6117163778
 20
-248.2640677578
 10
348.5501798387
 20
-248.1614708488
 10
345.5833736099
 20
-247.810603862
 10
342.720461997
 20
-247.2125520775
 10
339.9702984721
 20
-246.3691581672
 10
337.3413808937
 20
-245.2830358788
 10
334.841835701
 20
-243.9575396163
 10
332.4793942065
 20
-242.3967629165
 10
330.261347815
 20
-240.6055369237
 10
328.1945611944
 20
-238.5893954102
 10
326.2854195923
 20
-236.3545656452
 10
324.5398288359
 20
-233.9079623115
 10
322.963173185
 20
-231.2571449154
 10
321.5603364058
 20
-228.4103056214
 10
320.3356543552
 20
-225.3762418713
 10
319.2929044445
 20
-222.1643396523
 10
318.4353161761
 20
-218.7845187455
 10
317.7655342646
 20
-215.2472334823
 10
317.2856397108
 20
-211.5634096286
 10
316.9971076542
 20
-207.7444371555
 10
316.9008284471
 20
-203.8021227133
  0
ARC
  5
E2
330
1F
100
AcDbEntity
  8
0
  6
Continuous
 62
     7
370
    25
100
AcDbCircle
 10
491.4443211682
 20
-156.0012198625
 30
0.0
 40
33.62847599881147
100
AcDbArc
 50
51.1699764205
 51
59.9818002922
  0
LWPOLYLINE
  5
E3
330
1F
100
AcDbEntity
  8
0
  6
Continuous
 62
     7
370
    25
100
AcDbPolyline
 90
        3
 70
   128
 43
0.0
 10
413.2986736244
 20
-302.4612203559
 10
410.5945054822
 20
-301.3129627093
 10
408.275938857
 20
-300.0932212309
  0
ARC
  5
E4
330
1F
100
AcDbEntity
  8
0
  6
Continuous
 62
     7
370
    25
100
AcDbCircle
 10
490.5254690644
 20
-157.5814723134
 30
0.0
 40
35.44681641982153
100
AcDbArc
 50
37.9662354126
 51
54.0912246081
  0
ARC
  5
E5
330
1F
100
AcDbEntity
  8
0
  6
Continuous
 62
     7
370
    25
100
AcDbCircle
 10
426.0241425915
 20
-269.2506522593
 30
0.0
 40
35.57746826275478
100
AcDbArc
 50
245.9427132571
 51
262.0921735977
  0
ARC
  5
E6
330
1F
100
AcDbEntity
  8
0
  6
Continuous
 62
     7
370
    25
100
AcDbCircle
 10
527.7983697325
 20
-186.9576583275
 30
0.0
 40
32.33177575652914
100
AcDbArc
 50
40.2517937923
 51
47.9590092835
  0
ARC
  5
E7
330
1F
100
AcDbEntity
  8
0
  6
Continuous
 62
     7
370
    25
100
AcDbCircle
 10
470.145059981
 20
-286.6528576671
 30
0.0
 40
32.65247738772423
100
AcDbArc
 50
252.0824644527
 51
260.1785568399
  0
LWPOLYLINE
  5
E8
330
1F
100
AcDbEntity
  8
0
  6
Continuous
 62
     7
370
    25
100
AcDbPolyline
 90
       59
 70
   128
 43
0.0
 10
618.6476500256
 20
-202.1510643438
 10
619.2670664531
 20
-202.5186298461
 10
621.6423574681
 20
-204.1269823101
 10
623.8718994125
 20
-205.9660546648
 10
625.9489277173
 20
-208.0302492685
 10
627.8671256234
 20
-210.3133084399
 10
629.6206715975
 20
-212.8082931692
 10
631.2042445999
 20
-215.507625705
 10
632.6130293531
 20
-218.4031078054
 10
633.8427479521
 20
-221.485949639
 10
634.8896651324
 20
-224.746788036
 10
635.7506093437
 20
-228.1757138675
 10
636.4229569445
 20
-231.7623214736
 10
636.9046690812
 20
-235.4957147506
 10
637.1942811508
 20
-239.3645573407
 10
637.2909186061
 20
-243.357096208
 10
637.1942811508
 20
-247.4612103061
 10
636.9046690812
 20
-251.6644318743
 10
636.4229569445
 20
-255.9539981458
 10
635.7506093437
 20
-260.3168817683
 10
634.8896651324
 20
-264.7398326278
 10
633.8427479521
 20
-269.2094158723
 10
632.6130293531
 20
-273.7120605789
 10
631.2042445999
 20
-278.2340909334
 10
629.6206715975
 20
-282.7617779401
 10
627.8671256234
 20
-287.2813637563
 10
625.9489277173
 20
-291.7791270888
 10
623.8718994125
 20
-296.2414075285
 10
621.6423574681
 20
-300.6546542194
 10
619.2670664531
 20
-305.0054593145
 10
616.7532413813
 20
-309.2806172923
 10
614.1085161005
 20
-313.4671432048
 10
611.340927488
 20
-317.5523183038
 10
608.4588733032
 20
-321.5237326228
 10
605.4711121883
 20
-325.3693397306
 10
602.386713618
 20
-329.0774430381
 10
599.2150473637
 20
-332.6367931363
 10
595.9657439803
 20
-336.0365801886
 10
592.6486724158
 20
-339.2664711907
 10
589.2739070839
 20
-342.3166654817
 10
585.8516962545
 20
-345.1778947411
 10
582.3924324183
 20
-347.8414705148
 10
578.9066229823
 20
-350.2993072165
 10
575.4048533909
 20
-352.5439312496
 10
571.89775815
 20
-354.5685342373
 10
568.3959885586
 20
-356.3669673155
 10
564.9101791226
 20
-357.933760522
 10
561.4509152864
 20
-359.2641657593
 10
558.028704457
 20
-360.3541370199
 10
554.6539391252
 20
-361.2003638433
 10
551.3368675606
 20
-361.8002821499
 10
548.0875641772
 20
-362.1520609298
 10
544.9158979229
 20
-362.2546387424
 10
541.8314993527
 20
-362.1077062225
 10
538.8437382377
 20
-361.7116946713
 10
535.9616840529
 20
-361.0678292851
 10
533.1940954404
 20
-360.1780439824
 10
530.5493701596
 20
-359.0450528828
 10
528.6549615153
 20
-358.0398610558
  0
LWPOLYLINE
  5
E9
330
1F
100
AcDbEntity
  8
0
  6
Continuous
 62
     1
370
    25
100
AcDbPolyline
 90
       59
 70
   128
 43
0.0
 10
512.5297827409
 20
-129.8043172161
 10
514.6024435785
 20
-131.6126612749
 10
516.7449786225
 20
-133.8185940571
 10
518.7298844532
 20
-136.2393002293
 10
520.5518031522
 20
-138.8682575591
 10
522.2058298803
 20
-141.6983780719
 10
523.6874970713
 20
-144.7220323849
 10
524.9928218482
 20
-147.9310618785
 10
526.1182744123
 20
-151.3168288839
 10
527.060825459
 20
-154.8701969158
 10
527.8179303722
 20
-158.5815915075
 10
528.3875555666
 20
-162.4410017347
 10
528.768162682
 20
-166.4380266021
 10
528.9587191209
 20
-170.5618936757
 10
528.9587191209
 20
-174.8014811383
 10
528.768162682
 20
-179.1453599932
 10
528.3875555666
 20
-183.5818244824
 10
527.8179303722
 20
-188.0989099599
 10
527.060825459
 20
-192.6844392779
 10
526.1182744123
 20
-197.3260535843
 10
524.9928218482
 20
-202.0112404613
 10
523.6874970713
 20
-206.7273658629
 10
522.2058298803
 20
-211.4617167015
 10
520.5518031522
 20
-216.2015358254
 10
518.7298844532
 20
-220.9340357099
 10
516.7449786225
 20
-225.6464653735
 10
514.6024435785
 20
-230.326116463
 10
512.3080481709
 20
-234.9603749614
 10
509.8679827181
 20
-239.5367546487
 10
507.2888221286
 20
-244.0429092665
 10
504.5775206322
 20
-248.4666903121
 10
501.7413880731
 20
-252.796182018
 10
498.7880688359
 20
-257.0197013496
 10
495.7255234066
 20
-261.125869487
 10
492.5620125675
 20
-265.1036148659
 10
489.3060578846
 20
-268.9422203217
 10
485.9664443415
 20
-272.6313276533
 10
482.5521676563
 20
-276.1609923712
 10
479.0724382325
 20
-279.521705751
 10
475.5366337438
 20
-282.7044039551
 10
471.9542859634
 20
-285.7005121378
 10
468.3350524467
 20
-288.5019486256
 10
464.6886908474
 20
-291.1011579944
 10
461.0250309303
 20
-293.4911333109
 10
457.3539487227
 20
-295.6654432217
 10
453.685340996
 20
-297.6182162657
 10
450.0290982657
 20
-299.3441868804
 10
446.3950764735
 20
-300.8387056649
 10
442.7930711396
 20
-302.0977482183
 10
439.2327951369
 20
-303.1179097187
 10
435.7238447762
 20
-303.8964488375
 10
432.2756793906
 20
-304.431263022
 10
428.8975963116
 20
-304.7209090254
 10
425.5987018925
 20
-304.7646074674
 10
422.3878864843
 20
-304.5622451127
 10
419.2738086302
 20
-304.1143657442
 10
416.2648634555
 20
-303.4221701603
 10
413.3691589602
 20
-302.4875298603
 10
413.2986736244
 20
-302.4612203559
  0
ARC
  5
EA
330
1F
100
AcDbEntity
  8
0
  6
Continuous
 62
     1
370
    25
100
AcDbCircle
 10
540.4485538618
 20
-260.9279232446
 30
0.0
 40
146.01129268006
100
AcDbArc
 50
134.4198888254
 51
165.5854875828
  0
LWPOLYLINE
  5
EB
330
1F
100
AcDbEntity
  8
0
  6
Continuous
 62
     1
370
    25
100
AcDbPolyline
 90
       54
 70
   128
 43
0.0
 10
518.4707972387
 20
-135.7746975052
 10
518.9525884007
 20
-136.4004789567
 10
520.7739802642
 20
-139.0286696904
 10
522.4275223034
 20
-141.857965816
 10
523.9087627576
 20
-144.8807379521
 10
525.2137029445
 20
-148.0888396448
 10
526.3388288706
 20
-151.4736210597
 10
527.2811059627
 20
-155.0259563572
 10
528.0379948734
 20
-158.7362695504
 10
528.6074514803
 20
-162.5945588395
 10
528.987942692
 20
-166.5904243703
 10
529.1784464472
 20
-170.7130906681
 10
529.1784464472
 20
-174.9514454204
 10
528.987942692
 20
-179.2940626722
 10
528.6074514803
 20
-183.7292340052
 10
528.0379948734
 20
-188.2450038977
 10
527.2811059627
 20
-192.829202426
 10
526.3388288706
 20
-197.4694676968
 10
525.2137029445
 20
-202.153291855
 10
523.9087627576
 20
-206.8680454176
 10
522.4275223034
 20
-211.6010213794
 10
520.7739802642
 20
-216.3394565063
 10
518.9525884007
 20
-221.0705815234
 10
516.9682620892
 20
-225.7816393663
 10
514.8263487112
 20
-230.4599308065
 10
512.5326223848
 20
-235.0928448692
 10
510.0932628918
 20
-239.6678922918
 10
507.5148504088
 20
-244.1727328999
 10
504.8043391659
 20
-248.5952303583
 10
501.9690311045
 20
-252.9234612941
 10
499.0165706093
 20
-257.1457548401
 10
495.9549155322
 20
-261.2507336971
 10
492.7923240212
 20
-265.2273217377
 10
489.5373176424
 20
-269.0648078811
 10
486.1986734768
 20
-272.7528384883
 10
482.7853925109
 20
-276.2814842793
 10
479.3066746114
 20
-279.6412182778
 10
475.7718974522
 20
-282.8229948973
 10
472.1905914892
 20
-285.818227885
 10
468.5724109851
 20
-288.6188435518
 10
464.9271096425
 20
-291.2173009223
 10
461.2645147565
 20
-293.6065823214
 10
457.5945001319
 20
-295.7802576785
 10
453.9269593297
 20
-297.7324634698
 10
450.2717791609
 20
-299.4579301874
 10
446.6388143326
 20
-300.952015227
 10
443.0378574015
 20
-302.2106898147
 10
439.4786166309
 20
-303.2305578736
 10
435.970685697
 20
-304.0088674283
 10
432.5235239333
 20
-304.5435280934
 10
429.1464234027
 20
-304.8330935799
 10
425.8484878244
 20
-304.8767799445
 10
422.6386049152
 20
-304.6744754724
 10
421.1294000271
 20
-304.4898029757
  0
LWPOLYLINE
  5
EC
330
1F
100
AcDbEntity
  8
0
  6
Continuous
 62
     1
370
    25
100
AcDbPolyline
 90
       51
 70
   128
 43
0.0
 10
552.4743767576
 20
-166.0665501504
 10
553.519165522
 20
-167.3604845401
 10
555.2732804786
 20
-169.8562754134
 10
556.8573592431
 20
-172.5564810081
 10
558.2666023434
 20
-175.4529000418
 10
559.4967160691
 20
-178.5367381188
 10
560.5439756925
 20
-181.7986275077
 10
561.4051938583
 20
-185.2286636408
 10
562.0777574618
 20
-188.816430973
 10
562.5596276491
 20
-192.5510295985
 10
562.8493345491
 20
-196.4211208776
 10
562.9460036145
 20
-200.4149494928
 10
562.8493345491
 20
-204.5203898353
 10
562.5596276491
 20
-208.7249695813
 10
562.0777574618
 20
-213.0159236828
 10
561.4051938583
 20
-217.3802164228
 10
560.5439756925
 20
-221.8045938849
 10
559.4967160691
 20
-226.2756234977
 10
558.2666023434
 20
-230.7797206514
 10
556.8573592431
 20
-235.3032171353
 10
555.2732804786
 20
-239.8323611415
 10
553.519165522
 20
-244.3534100348
 10
551.6003459499
 20
-248.852627314
 10
549.5226485639
 20
-253.3163495286
 10
547.2923848547
 20
-257.7310197383
 10
544.9163246598
 20
-262.0832361804
 10
542.4016908953
 20
-266.359773562
 10
539.7561121408
 20
-270.5476499765
 10
536.9876279077
 20
-274.6341390713
 10
534.1046438582
 20
-278.6068445691
 10
531.1159159999
 20
-282.4536911407
 10
528.0305190761
 20
-286.1629974068
 10
524.8578281266
 20
-289.7234987497
 10
521.6074763403
 20
-293.1243777283
 10
518.2893326653
 20
-296.3553135058
 10
514.9134767838
 20
-299.4064962963
 10
511.4901609167
 20
-302.2686494144
 10
508.0297795305
 20
-304.9330832656
 10
504.5428436541
 20
-307.3917101726
 10
501.0399425185
 20
-309.6370665204
 10
497.5317142518
 20
-311.66232359
 10
494.0288131163
 20
-313.4613308066
 10
490.5418772399
 20
-315.0286343681
 10
487.0814958537
 20
-316.3594718236
 10
483.6581799866
 20
-317.4497950749
 10
480.2823241051
 20
-318.2962925208
 10
476.9641804301
 20
-318.8964038843
 10
473.7138286438
 20
-319.248301198
 10
470.5411376943
 20
-319.3509108539
 10
467.4557407705
 20
-319.2039280498
 10
464.5752565559
 20
-318.8267845235
  0
ARC
  5
ED
330
1F
100
AcDbEntity
  8
0
  6
Continuous
 62
     1
370
    25
100
AcDbCircle
 10
541.484227047
 20
-261.5258054522
 30
0.0
 40
146.4606848024322
100
AcDbArc
 50
135.0027311519
 51
165.0026446121
  0
LWPOLYLINE
  5
EE
330
1F
100
AcDbEntity
  8
0
  6
Continuous
 62
     1
370
    25
100
AcDbPolyline
 90
       55
 70
   128
 43
0.0
 10
548.6541073832
 20
-162.2293527459
 10
549.746706479
 20
-163.1744916283
 10
551.8237347837
 20
-165.238686232
 10
553.7419326899
 20
-167.5217454034
 10
555.4954786639
 20
-170.0167301327
 10
557.0790516663
 20
-172.7160626685
 10
558.4878364196
 20
-175.6115447689
 10
559.7175550186
 20
-178.6943866025
 10
560.7644721989
 20
-181.9552249995
 10
561.6254164101
 20
-185.384150831
 10
562.297764011
 20
-188.9707584371
 10
562.7794761477
 20
-192.7041517141
 10
563.0690882172
 20
-196.5729943042
 10
563.1657256725
 20
-200.5655331715
 10
563.0690882172
 20
-204.6696472696
 10
562.7794761477
 20
-208.8728688378
 10
562.297764011
 20
-213.1624351093
 10
561.6254164101
 20
-217.5253187318
 10
560.7644721989
 20
-221.9482695912
 10
559.7175550186
 20
-226.4178528358
 10
558.4878364196
 20
-230.9204975424
 10
557.0790516663
 20
-235.4425278969
 10
555.4954786639
 20
-239.9702149036
 10
553.7419326899
 20
-244.4898007198
 10
551.8237347837
 20
-248.9875640523
 10
549.746706479
 20
-253.449844492
 10
547.5171645345
 20
-257.8630911828
 10
545.1418735196
 20
-262.213896278
 10
542.6280484477
 20
-266.4890542558
 10
539.983323167
 20
-270.6755801683
 10
537.2157345544
 20
-274.7607552673
 10
534.3336803697
 20
-278.7321695863
 10
531.3459192547
 20
-282.5777766941
 10
528.2615206845
 20
-286.2858800016
 10
525.0898544302
 20
-289.8452300998
 10
521.8405510468
 20
-293.2450171521
 10
518.5234794822
 20
-296.4749081542
 10
515.1487141504
 20
-299.5251024452
 10
511.726503321
 20
-302.3863317046
 10
508.2672394848
 20
-305.0499074783
 10
504.7814300488
 20
-307.50774418
 10
501.2796604573
 20
-309.7523682131
 10
497.7725652165
 20
-311.7769712008
 10
494.270795625
 20
-313.575404279
 10
490.784986189
 20
-315.1421974855
 10
487.3257223528
 20
-316.4726027228
 10
483.9035115234
 20
-317.5625739834
 10
480.5287461916
 20
-318.4088008068
 10
477.2116746271
 20
-319.0087191134
 10
473.9623712436
 20
-319.3604978933
 10
470.7907049894
 20
-319.4630757059
 10
467.7063064191
 20
-319.316143186
 10
464.7185453041
 20
-318.9201316348
 10
461.8364911194
 20
-318.2762662486
 10
459.0811593372
 20
-317.3910616035
  0
ENDSEC
  0
SECTION
  2
OBJECTS
  0
DICTIONARY
  5
C
330
0
100
AcDbDictionary
281
     1
  3
ACAD_GROUP
350
D
  3
ACAD_LAYOUT
350
1A
  3
ACAD_MLINESTYLE
350
17
  3
ACAD_PLOTSETTINGS
350
19
  3
ACAD_PLOTSTYLENAME
350
E
  3
ACAD_SCALELIST
350
47
  0
DICTIONARY
  5
D
102
{ACAD_REACTORS
330
C
102
}
330
C
100
AcDbDictionary
281
     1
  0
DICTIONARY
  5
1A
102
{ACAD_REACTORS
330
C
102
}
330
C
100
AcDbDictionary
281
     1
  3
Layout1
350
1E
  3
Layout2
350
26
  3
Model
350
22
  0
DICTIONARY
  5
17
102
{ACAD_REACTORS
330
C
102
}
330
C
100
AcDbDictionary
281
     1
  3
Standard
350
18
  0
DICTIONARY
  5
19
102
{ACAD_REACTORS
330
C
102
}
330
C
100
AcDbDictionary
281
     1
  0
ACDBDICTIONARYWDFLT
  5
E
102
{ACAD_REACTORS
330
C
102
}
330
C
100
AcDbDictionary
281
     1
  3
Normal
350
F
100
AcDbDictionaryWithDefault
340
F
  0
DICTIONARY
  5
47
102
{ACAD_REACTORS
330
C
102
}
330
C
100
AcDbDictionary
281
     1
  3
A0
350
48
  3
A1
350
49
  3
A2
350
4A
  3
A3
350
4B
  3
A4
350
4C
  3
A5
350
4D
  3
A6
350
4E
  3
A7
350
4F
  3
A8
350
50
  3
A9
350
51
  3
B0
350
52
  3
B1
350
53
  3
B2
350
54
  3
B3
350
55
  3
B4
350
56
  3
B5
350
57
  3
B6
350
58
  3
B7
350
59
  3
B8
350
5A
  3
B9
350
5B
  3
C0
350
5C
  3
C1
350
5D
  3
C2
350
5E
  3
C3
350
5F
  3
C4
350
60
  3
C5
350
61
  3
C6
350
62
  3
C7
350
63
  3
C8
350
64
  3
C9
350
65
  3
D0
350
66
  3
D1
350
67
  3
D2
350
68
  0
LAYOUT
  5
1E
102
{ACAD_REACTORS
330
1A
102
}
330
1A
100
AcDbPlotSettings
  1

  2
none_device
  4

  6

 40
0.0
 41
0.0
 42
0.0
 43
0.0
 44
0.0
 45
0.0
 46
0.0
 47
0.0
 48
0.0
 49
0.0
140
0.0
141
0.0
142
1.0
143
1.0
 70
   688
 72
     1
 73
     0
 74
     5
  7

 75
    16
147
1.0
148
0.0
149
0.0
100
AcDbLayout
  1
Layout1
 70
     1
 71
     1
 10
0.0
 20
0.0
 11
420.0
 21
297.0
 12
0.0
 22
0.0
 32
0.0
 14
1.0000000000E+20
 24
1.0000000000E+20
 34
1.0000000000E+20
 15
-1.0000000000E+20
 25
-1.0000000000E+20
 35
-1.0000000000E+20
146
0.0
 13
0.0
 23
0.0
 33
0.0
 16
1.0
 26
0.0
 36
0.0
 17
0.0
 27
1.0
 37
0.0
 76
     0
330
1B
  0
LAYOUT
  5
26
102
{ACAD_REACTORS
330
1A
102
}
330
1A
100
AcDbPlotSettings
  1

  2
none_device
  4

  6

 40
0.0
 41
0.0
 42
0.0
 43
0.0
 44
0.0
 45
0.0
 46
0.0
 47
0.0
 48
0.0
 49
0.0
140
0.0
141
0.0
142
1.0
143
1.0
 70
   688
 72
     1
 73
     0
 74
     5
  7

 75
    16
147
1.0
148
0.0
149
0.0
100
AcDbLayout
  1
Layout2
 70
     1
 71
     2
 10
0.0
 20
0.0
 11
0.0
 21
0.0
 12
0.0
 22
0.0
 32
0.0
 14
0.0
 24
0.0
 34
0.0
 15
0.0
 25
0.0
 35
0.0
146
0.0
 13
0.0
 23
0.0
 33
0.0
 16
1.0
 26
0.0
 36
0.0
 17
0.0
 27
1.0
 37
0.0
 76
     0
330
23
  0
LAYOUT
  5
22
102
{ACAD_REACTORS
330
1A
102
}
330
1A
100
AcDbPlotSettings
  1

  2
none_device
  4
Letter_(8.50_x_11.00_Inches)
  6

 40
6.35
 41
6.35
 42
6.35000508
 43
6.35000508
 44
215.9
 45
279.4
 46
0.0
 47
0.0
 48
0.0
 49
0.0
140
0.0
141
0.0
142
1.0
143
1.0
 70
  1712
 72
     1
 73
     0
 74
     0
  7

 75
     0
147
1.0
148
0.0
149
0.0
100
AcDbLayout
  1
Model
 70
     1
 71
     0
 10
0.0
 20
0.0
 11
279.4
 21
215.9
 12
0.0
 22
0.0
 32
0.0
 14
0.0
 24
0.0
 34
0.0
 15
279.4
 25
215.9
 35
0.0
146
0.0
 13
0.0
 23
0.0
 33
0.0
 16
1.0
 26
0.0
 36
0.0
 17
0.0
 27
1.0
 37
0.0
 76
     0
330
1F
331
29
  0
MLINESTYLE
  5
18
102
{ACAD_REACTORS
330
17
102
}
330
17
100
AcDbMlineStyle
  2
Standard
 70
     0
  3

 62
   256
 51
90.0
 52
90.0
 71
     2
 49
0.5
 62
   256
  6
BYLAYER
 49
-0.5
 62
   256
  6
BYLAYER
  0
ACDBPLACEHOLDER
  5
F
102
{ACAD_REACTORS
330
E
102
}
330
E
  0
SCALE
  5
48
102
{ACAD_REACTORS
330
47
102
}
330
47
100
AcDbScale
 70
     0
300
1:1
140
1.0
141
1.0
290
     1
  0
SCALE
  5
49
102
{ACAD_REACTORS
330
47
102
}
330
47
100
AcDbScale
 70
     0
300
1:2
140
1.0
141
2.0
290
     0
  0
SCALE
  5
4A
102
{ACAD_REACTORS
330
47
102
}
330
47
100
AcDbScale
 70
     0
300
1:4
140
1.0
141
4.0
290
     0
  0
SCALE
  5
4B
102
{ACAD_REACTORS
330
47
102
}
330
47
100
AcDbScale
 70
     0
300
1:5
140
1.0
141
5.0
290
     0
  0
SCALE
  5
4C
102
{ACAD_REACTORS
330
47
102
}
330
47
100
AcDbScale
 70
     0
300
1:8
140
1.0
141
8.0
290
     0
  0
SCALE
  5
4D
102
{ACAD_REACTORS
330
47
102
}
330
47
100
AcDbScale
 70
     0
300
1:10
140
1.0
141
10.0
290
     0
  0
SCALE
  5
4E
102
{ACAD_REACTORS
330
47
102
}
330
47
100
AcDbScale
 70
     0
300
1:16
140
1.0
141
16.0
290
     0
  0
SCALE
  5
4F
102
{ACAD_REACTORS
330
47
102
}
330
47
100
AcDbScale
 70
     0
300
1:20
140
1.0
141
20.0
290
     0
  0
SCALE
  5
50
102
{ACAD_REACTORS
330
47
102
}
330
47
100
AcDbScale
 70
     0
300
1:30
140
1.0
141
30.0
290
     0
  0
SCALE
  5
51
102
{ACAD_REACTORS
330
47
102
}
330
47
100
AcDbScale
 70
     0
300
1:40
140
1.0
141
40.0
290
     0
  0
SCALE
  5
52
102
{ACAD_REACTORS
330
47
102
}
330
47
100
AcDbScale
 70
     0
300
1:50
140
1.0
141
50.0
290
     0
  0
SCALE
  5
53
102
{ACAD_REACTORS
330
47
102
}
330
47
100
AcDbScale
 70
     0
300
1:100
140
1.0
141
100.0
290
     0
  0
SCALE
  5
54
102
{ACAD_REACTORS
330
47
102
}
330
47
100
AcDbScale
 70
     0
300
2:1
140
2.0
141
1.0
290
     0
  0
SCALE
  5
55
102
{ACAD_REACTORS
330
47
102
}
330
47
100
AcDbScale
 70
     0
300
4:1
140
4.0
141
1.0
290
     0
  0
SCALE
  5
56
102
{ACAD_REACTORS
330
47
102
}
330
47
100
AcDbScale
 70
     0
300
8:1
140
8.0
141
1.0
290
     0
  0
SCALE
  5
57
102
{ACAD_REACTORS
330
47
102
}
330
47
100
AcDbScale
 70
     0
300
10:1
140
10.0
141
1.0
290
     0
  0
SCALE
  5
58
102
{ACAD_REACTORS
330
47
102
}
330
47
100
AcDbScale
 70
     0
300
100:1
140
100.0
141
1.0
290
     0
  0
SCALE
  5
59
102
{ACAD_REACTORS
330
47
102
}
330
47
100
AcDbScale
 70
     0
300
1/128" = 1'-0"
140
0.0078125
141
12.0
290
     0
  0
SCALE
  5
5A
102
{ACAD_REACTORS
330
47
102
}
330
47
100
AcDbScale
 70
     0
300
1/64" = 1'-0"
140
0.015625
141
12.0
290
     0
  0
SCALE
  5
5B
102
{ACAD_REACTORS
330
47
102
}
330
47
100
AcDbScale
 70
     0
300
1/32" = 1'-0"
140
0.03125
141
12.0
290
     0
  0
SCALE
  5
5C
102
{ACAD_REACTORS
330
47
102
}
330
47
100
AcDbScale
 70
     0
300
1/16" = 1'-0"
140
0.0625
141
12.0
290
     0
  0
SCALE
  5
5D
102
{ACAD_REACTORS
330
47
102
}
330
47
100
AcDbScale
 70
     0
300
3/32" = 1'-0"
140
0.09375
141
12.0
290
     0
  0
SCALE
  5
5E
102
{ACAD_REACTORS
330
47
102
}
330
47
100
AcDbScale
 70
     0
300
1/8" = 1'-0"
140
0.125
141
12.0
290
     0
  0
SCALE
  5
5F
102
{ACAD_REACTORS
330
47
102
}
330
47
100
AcDbScale
 70
     0
300
3/16" = 1'-0"
140
0.1875
141
12.0
290
     0
  0
SCALE
  5
60
102
{ACAD_REACTORS
330
47
102
}
330
47
100
AcDbScale
 70
     0
300
1/4" = 1'-0"
140
0.25
141
12.0
290
     0
  0
SCALE
  5
61
102
{ACAD_REACTORS
330
47
102
}
330
47
100
AcDbScale
 70
     0
300
3/8" = 1'-0"
140
0.375
141
12.0
290
     0
  0
SCALE
  5
62
102
{ACAD_REACTORS
330
47
102
}
330
47
100
AcDbScale
 70
     0
300
1/2" = 1'-0"
140
0.5
141
12.0
290
     0
  0
SCALE
  5
63
102
{ACAD_REACTORS
330
47
102
}
330
47
100
AcDbScale
 70
     0
300
3/4" = 1'-0"
140
0.75
141
12.0
290
     0
  0
SCALE
  5
64
102
{ACAD_REACTORS
330
47
102
}
330
47
100
AcDbScale
 70
     0
300
1" = 1'-0"
140
1.0
141
12.0
290
     0
  0
SCALE
  5
65
102
{ACAD_REACTORS
330
47
102
}
330
47
100
AcDbScale
 70
     0
300
1-1/2" = 1'-0"
140
1.5
141
12.0
290
     0
  0
SCALE
  5
66
102
{ACAD_REACTORS
330
47
102
}
330
47
100
AcDbScale
 70
     0
300
3" = 1'-0"
140
3.0
141
12.0
290
     0
  0
SCALE
  5
67
102
{ACAD_REACTORS
330
47
102
}
330
47
100
AcDbScale
 70
     0
300
6" = 1'-0"
140
6.0
141
12.0
290
     0
  0
SCALE
  5
68
102
{ACAD_REACTORS
330
47
102
}
330
47
100
AcDbScale
 70
     0
300
1'-0" = 1'-0"
140
12.0
141
12.0
290
     0
  0
ENDSEC
  0
EOF
